Permalink

How to play This Is My Life by Gasolin

If you’re reading this page, you’ve probably just watched my video-lesson, on how to play This Is My Life, on YouTube. Otherwise you can watch it below.

Here you’ll find the tabs and text-version on how to play it.

Intro

For the intro I play a little C, Cadd11 riff, like this (thought it was a Csus when doing the video):

 e----0------0----0-----
 H---1------1----1------
 G--0------0----0----0-0
 D------0h3-------------
 A-3-----------3----0-2-
 E----------------------

Verse

In the verse I play G, G/F# bass note:

 e----3------
 H---3-------
 G--0----0-0-
 D-----------
 A-----------
 E-3----2-3--

Verse into chorus.

Going from the verse into the chorus, I play C, C/B:

 e----0----0-
 H---1----1--
 G--0----0---
 D-----------
 A-3----2----
 E-----------

Solo

For a simple solo you could play:

 e-
 H-5-5-3---3--5-5-3--------5-5-3--------
 G-------5----------5-5-2--------5-4-5-5
 D-
 A-
 E-
 e-
 H-13-13-12-12------------13-13-13-12---------
 G-------------14--12-14--------------14-12---
 D------------------------------------------14
 A-
 E-

Full song chords

The chords for the full song is these:

Intro: C x 4

Verse: C, G, Am, F – Am, G, F, C (x2).

Chorus: Am, E7, F, C – Am, G, F, C.

Solo is played over 2 verses.

Have fun playing

I hope this helps you to play this great tune. If you have any questions, please feel free to write them as a comment on this page, or at the YouTube video.

I’ll end this session with my own cover version. Have fun playing.

Video2

Skriv et svar

1 × three =